ISO-10303-21;
HEADER;
FILE_DESCRIPTION (( 'STEP AP203' ),
    '1' );
FILE_NAME ('BK7-NPBSC-12.7-450-650.STEP',
    '2020-12-22T02:09:00',
    ( '' ),
    ( '' ),
    'SwSTEP 2.0',
    'SolidWorks 2020',
    '' );
FILE_SCHEMA (( 'CONFIG_CONTROL_DESIGN' ));
ENDSEC;

DATA;
#1 = DATE_TIME_ROLE ( 'creation_date' ) ;
#2 = CALENDAR_DATE ( 2020, 22, 12 ) ;
#3 = VERTEX_POINT ( 'NONE', #157 ) ;
#4 = ORIENTED_EDGE ( 'NONE', *, *, #104, .T. ) ;
#5 = ORIENTED_EDGE ( 'NONE', *, *, #215, .F. ) ;
#6 = VECTOR ( 'NONE', #247, 1000.000000000000114 ) ;
#7 = CC_DESIGN_APPROVAL ( #159, ( #295 ) ) ;
#8 = ORIENTED_EDGE ( 'NONE', *, *, #265, .F. ) ;
#9 = DIRECTION ( 'NONE',  ( -2.903408047666378392E-16, -1.000000000000000000, 0.000000000000000000 ) ) ;
#10 = ORIENTED_EDGE ( 'NONE', *, *, #170, .T. ) ;
#11 = CARTESIAN_POINT ( 'NONE',  ( 6.349999999999996980, 6.349999999999996980, 6.349999999999999645 ) ) ;
#12 = ORIENTED_EDGE ( 'NONE', *, *, #182, .F. ) ;
#13 = DIRECTION ( 'NONE',  ( 0.000000000000000000, 0.000000000000000000, 1.000000000000000000 ) ) ;
#14 = CARTESIAN_POINT ( 'NONE',  ( -6.349999999999999645, -6.350000000000000533, 6.349999999999999645 ) ) ;
#15 = VECTOR ( 'NONE', #65, 1000.000000000000114 ) ;
#16 = LINE ( 'NONE', #193, #240 ) ;
#17 = CARTESIAN_POINT ( 'NONE',  ( -6.349999999999998757, -6.349999999999997868, -6.349999999999999645 ) ) ;
#18 = PERSON_AND_ORGANIZATION_ROLE ( 'design_owner' ) ;
#19 = VECTOR ( 'NONE', #137, 1000.000000000000000 ) ;
#20 = CC_DESIGN_PERSON_AND_ORGANIZATION_ASSIGNMENT ( #96, #274, ( #295 ) ) ;
#21 = DIRECTION ( 'NONE',  ( 0.000000000000000000, 0.000000000000000000, 1.000000000000000000 ) ) ;
#22 = CARTESIAN_POINT ( 'NONE',  ( 6.349999999999996980, 6.349999999999996980, -6.349999999999999645 ) ) ;
#23 = DIRECTION ( 'NONE',  ( 0.000000000000000000, 1.000000000000000000, 0.000000000000000000 ) ) ;
#24 = AXIS2_PLACEMENT_3D ( 'NONE', #218, #21, #224 ) ;
#25 = EDGE_CURVE ( 'NONE', #79, #55, #260, .T. ) ;
#26 = VERTEX_POINT ( 'NONE', #136 ) ;
#27 = ORIENTED_EDGE ( 'NONE', *, *, #246, .T. ) ;
#28 = DIRECTION ( 'NONE',  ( -0.000000000000000000, -0.000000000000000000, -1.000000000000000000 ) ) ;
#29 = VECTOR ( 'NONE', #133, 1000.000000000000000 ) ;
#30 = CC_DESIGN_PERSON_AND_ORGANIZATION_ASSIGNMENT ( #297, #71, ( #109 ) ) ;
#31 = ORIENTED_EDGE ( 'NONE', *, *, #192, .F. ) ;
#32 = LINE ( 'NONE', #289, #29 ) ;
#33 = ORIENTED_EDGE ( 'NONE', *, *, #135, .F. ) ;
#34 = LINE ( 'NONE', #83, #270 ) ;
#35 = EDGE_LOOP ( 'NONE', ( #178, #235, #164, #177 ) ) ;
#36 = FACE_OUTER_BOUND ( 'NONE', #212, .T. ) ;
#37 = PLANE ( 'NONE',  #42 ) ;
#38 = FACE_OUTER_BOUND ( 'NONE', #152, .T. ) ;
#39 = CARTESIAN_POINT ( 'NONE',  ( 6.349999999999996980, 6.349999999999996980, 6.349999999999999645 ) ) ;
#40 = APPROVAL_PERSON_ORGANIZATION ( #54, #310, #200 ) ;
#41 = PERSON_AND_ORGANIZATION ( #144, #205 ) ;
#42 = AXIS2_PLACEMENT_3D ( 'NONE', #85, #269, #187 ) ;
#43 =( NAMED_UNIT ( * ) PLANE_ANGLE_UNIT ( ) SI_UNIT ( $, .RADIAN. ) );
#44 = APPROVAL_DATE_TIME ( #277, #69 ) ;
#45 = CARTESIAN_POINT ( 'NONE',  ( -6.349999999999998757, -6.349999999999997868, 6.349999999999999645 ) ) ;
#46 = PERSON_AND_ORGANIZATION ( #144, #205 ) ;
#47 = CARTESIAN_POINT ( 'NONE',  ( 0.000000000000000000, 0.000000000000000000, 6.349999999999999645 ) ) ;
#48 = EDGE_CURVE ( 'NONE', #49, #201, #217, .T. ) ;
#49 = VERTEX_POINT ( 'NONE', #90 ) ;
#50 = EDGE_LOOP ( 'NONE', ( #61, #4, #27 ) ) ;
#51 = ORIENTED_EDGE ( 'NONE', *, *, #25, .T. ) ;
#52 = LINE ( 'NONE', #122, #6 ) ;
#53 = ADVANCED_FACE ( 'NONE', ( #191 ), #142, .F. ) ;
#54 = PERSON_AND_ORGANIZATION ( #144, #205 ) ;
#55 = VERTEX_POINT ( 'NONE', #166 ) ;
#56 = CARTESIAN_POINT ( 'NONE',  ( 6.349999999999996980, 6.349999999999996980, -6.349999999999999645 ) ) ;
#57 = LINE ( 'NONE', #264, #19 ) ;
#58 = VERTEX_POINT ( 'NONE', #17 ) ;
#59 = CARTESIAN_POINT ( 'NONE',  ( -6.349999999999998757, -6.349999999999997868, 6.349999999999999645 ) ) ;
#60 = LINE ( 'NONE', #163, #82 ) ;
#61 = ORIENTED_EDGE ( 'NONE', *, *, #285, .T. ) ;
#62 = DIRECTION ( 'NONE',  ( -0.7071067811865475727, 0.7071067811865475727, 0.000000000000000000 ) ) ;
#63 = DIRECTION ( 'NONE',  ( 0.7071067811865474617, 0.7071067811865474617, 0.000000000000000000 ) ) ;
#64 =( GEOMETRIC_REPRESENTATION_CONTEXT ( 3 ) GLOBAL_UNCERTAINTY_ASSIGNED_CONTEXT ( ( #80 ) ) GLOBAL_UNIT_ASSIGNED_CONTEXT ( ( #317, #43, #149 ) ) REPRESENTATION_CONTEXT ( 'NONE', 'WORKASPACE' ) );
#65 = DIRECTION ( 'NONE',  ( -0.7071067811865474617, -0.7071067811865474617, 0.000000000000000000 ) ) ;
#66 = AXIS2_PLACEMENT_3D ( 'NONE', #234, #9, #287 ) ;
#67 = ADVANCED_BREP_SHAPE_REPRESENTATION ( 'BK7-NPBSC-12.7-450-650', ( #242, #124, #24 ), #64 ) ;
#68 = COORDINATED_UNIVERSAL_TIME_OFFSET ( 8, 0, .AHEAD. ) ;
#69 = APPROVAL ( #73, 'UNSPECIFIED' ) ;
#70 = PERSON_AND_ORGANIZATION_ROLE ( 'creator' ) ;
#71 = PERSON_AND_ORGANIZATION_ROLE ( 'classification_officer' ) ;
#72 = CARTESIAN_POINT ( 'NONE',  ( -6.349999999999999645, -6.350000000000000533, 6.349999999999999645 ) ) ;
#73 = APPROVAL_STATUS ( 'not_yet_approved' ) ;
#74 = FACE_OUTER_BOUND ( 'NONE', #127, .T. ) ;
#75 = VECTOR ( 'NONE', #305, 1000.000000000000000 ) ;
#76 = ORIENTED_EDGE ( 'NONE', *, *, #206, .T. ) ;
#77 = LOCAL_TIME ( 10, 9, 0.000000000000000000, #68 ) ;
#78 = APPROVAL_STATUS ( 'not_yet_approved' ) ;
#79 = VERTEX_POINT ( 'NONE', #14 ) ;
#80 = UNCERTAINTY_MEASURE_WITH_UNIT (LENGTH_MEASURE( 1.000000000000000082E-05 ), #317, 'distance_accuracy_value', 'NONE');
#81 = CARTESIAN_POINT ( 'NONE',  ( -6.350000000000002309, 6.350000000000001421, 6.349999999999999645 ) ) ;
#82 = VECTOR ( 'NONE', #267, 1000.000000000000000 ) ;
#83 = CARTESIAN_POINT ( 'NONE',  ( 6.349999999999996980, 6.349999999999996980, 6.349999999999999645 ) ) ;
#84 = ORIENTED_EDGE ( 'NONE', *, *, #301, .T. ) ;
#85 = CARTESIAN_POINT ( 'NONE',  ( 6.349999999999998757, 6.349999999999998757, 6.349999999999999645 ) ) ;
#86 = CC_DESIGN_APPROVAL ( #69, ( #87 ) ) ;
#87 = PRODUCT_DEFINITION ( 'UNKNOWN', '', #295, #284 ) ;
#88 = ORIENTED_EDGE ( 'NONE', *, *, #48, .F. ) ;
#89 = DIRECTION ( 'NONE',  ( 0.000000000000000000, 0.000000000000000000, -1.000000000000000000 ) ) ;
#90 = CARTESIAN_POINT ( 'NONE',  ( 6.349999999999996980, 6.349999999999996980, 6.349999999999999645 ) ) ;
#91 = DIRECTION ( 'NONE',  ( -0.000000000000000000, -0.000000000000000000, -1.000000000000000000 ) ) ;
#92 = FACE_OUTER_BOUND ( 'NONE', #283, .T. ) ;
#93 = ADVANCED_FACE ( 'NONE', ( #92 ), #37, .F. ) ;
#94 = APPLICATION_PROTOCOL_DEFINITION ( 'international standard', 'config_control_design', 1994, #108 ) ;
#95 = APPROVAL_ROLE ( '' ) ;
#96 = PERSON_AND_ORGANIZATION ( #144, #205 ) ;
#97 = PLANE ( 'NONE',  #273 ) ;
#98 = VECTOR ( 'NONE', #89, 1000.000000000000000 ) ;
#99 = DIRECTION ( 'NONE',  ( -2.220446049250312588E-16, 1.000000000000000000, 0.000000000000000000 ) ) ;
#100 = ADVANCED_FACE ( 'NONE', ( #118 ), #315, .F. ) ;
#101 = COORDINATED_UNIVERSAL_TIME_OFFSET ( 8, 0, .AHEAD. ) ;
#102 = ORIENTED_EDGE ( 'NONE', *, *, #265, .T. ) ;
#103 = CLOSED_SHELL ( 'NONE', ( #304, #271, #175, #153, #276 ) ) ;
#104 = EDGE_CURVE ( 'NONE', #79, #3, #60, .T. ) ;
#105 = ORIENTED_EDGE ( 'NONE', *, *, #192, .T. ) ;
#106 = VERTEX_POINT ( 'NONE', #239 ) ;
#107 = ORIENTED_EDGE ( 'NONE', *, *, #104, .F. ) ;
#108 = APPLICATION_CONTEXT ( 'configuration controlled 3d designs of mechanical parts and assemblies' ) ;
#109 = SECURITY_CLASSIFICATION ( '', '', #196 ) ;
#110 = LINE ( 'NONE', #160, #171 ) ;
#111 = ORIENTED_EDGE ( 'NONE', *, *, #135, .T. ) ;
#112 = ADVANCED_FACE ( 'NONE', ( #214 ), #97, .F. ) ;
#113 = LINE ( 'NONE', #11, #309 ) ;
#114 = CARTESIAN_POINT ( 'NONE',  ( 6.349999999999998757, 6.349999999999998757, 6.349999999999999645 ) ) ;
#115 = DIRECTION ( 'NONE',  ( 1.000000000000000000, 0.000000000000000000, 0.000000000000000000 ) ) ;
#116 = APPLICATION_CONTEXT ( 'configuration controlled 3d designs of mechanical parts and assemblies' ) ;
#117 = CARTESIAN_POINT ( 'NONE',  ( 6.349999999999996980, 6.349999999999996980, 6.349999999999999645 ) ) ;
#118 = FACE_OUTER_BOUND ( 'NONE', #203, .T. ) ;
#119 = CALENDAR_DATE ( 2020, 22, 12 ) ;
#120 = APPROVAL_DATE_TIME ( #248, #159 ) ;
#121 = LINE ( 'NONE', #319, #128 ) ;
#122 = CARTESIAN_POINT ( 'NONE',  ( 6.349999999999998757, 6.349999999999998757, -6.349999999999999645 ) ) ;
#123 = DIRECTION ( 'NONE',  ( -6.829619984160658046E-17, 1.000000000000000000, -0.000000000000000000 ) ) ;
#124 = MANIFOLD_SOLID_BREP ( '¾µÏ', #103 ) ;
#125 = APPROVAL_STATUS ( 'not_yet_approved' ) ;
#126 = CC_DESIGN_PERSON_AND_ORGANIZATION_ASSIGNMENT ( #147, #18, ( #245 ) ) ;
#127 = EDGE_LOOP ( 'NONE', ( #237, #129, #281, #76 ) ) ;
#128 = VECTOR ( 'NONE', #123, 1000.000000000000000 ) ;
#129 = ORIENTED_EDGE ( 'NONE', *, *, #301, .F. ) ;
#130 = VERTEX_POINT ( 'NONE', #22 ) ;
#131 = EDGE_CURVE ( 'NONE', #26, #106, #121, .T. ) ;
#132 = PRODUCT_DEFINITION_SHAPE ( 'NONE', 'NONE',  #87 ) ;
#133 = DIRECTION ( 'NONE',  ( -6.829619984160658046E-17, 1.000000000000000000, -0.000000000000000000 ) ) ;
#134 = ORIENTED_EDGE ( 'NONE', *, *, #131, .F. ) ;
#135 = EDGE_CURVE ( 'NONE', #201, #58, #275, .T. ) ;
#136 = CARTESIAN_POINT ( 'NONE',  ( 6.349999999999999645, -6.350000000000000533, -6.349999999999999645 ) ) ;
#137 = DIRECTION ( 'NONE',  ( -0.000000000000000000, -0.000000000000000000, -1.000000000000000000 ) ) ;
#138 = VERTEX_POINT ( 'NONE', #150 ) ;
#139 = DIRECTION ( 'NONE',  ( -2.220446049250312588E-16, 1.000000000000000000, 0.000000000000000000 ) ) ;
#140 = DIRECTION ( 'NONE',  ( -0.000000000000000000, 0.000000000000000000, 1.000000000000000000 ) ) ;
#141 = CARTESIAN_POINT ( 'NONE',  ( 6.349999999999998757, 6.349999999999998757, 6.349999999999999645 ) ) ;
#142 = PLANE ( 'NONE',  #184 ) ;
#143 = CC_DESIGN_SECURITY_CLASSIFICATION ( #109, ( #295 ) ) ;
#144 = PERSON ( 'UNSPECIFIED', 'UNSPECIFIED', 'UNSPECIFIED', ('UNSPECIFIED'), ('UNSPECIFIED'), ('UNSPECIFIED') ) ;
#145 = CALENDAR_DATE ( 2020, 22, 12 ) ;
#146 = VECTOR ( 'NONE', #313, 999.9999999999998863 ) ;
#147 = PERSON_AND_ORGANIZATION ( #144, #205 ) ;
#148 = PLANE ( 'NONE',  #219 ) ;
#149 =( NAMED_UNIT ( * ) SI_UNIT ( $, .STERADIAN. ) SOLID_ANGLE_UNIT ( ) );
#150 = CARTESIAN_POINT ( 'NONE',  ( -6.350000000000002309, 6.350000000000001421, -6.349999999999999645 ) ) ;
#151 = VECTOR ( 'NONE', #198, 1000.000000000000000 ) ;
#152 = EDGE_LOOP ( 'NONE', ( #12, #33, #10, #84 ) ) ;
#153 = ADVANCED_FACE ( 'NONE', ( #225 ), #172, .T. ) ;
#154 = ORIENTED_EDGE ( 'NONE', *, *, #320, .F. ) ;
#155 = EDGE_LOOP ( 'NONE', ( #189, #8, #107, #51 ) ) ;
#156 = COORDINATED_UNIVERSAL_TIME_OFFSET ( 8, 0, .AHEAD. ) ;
#157 = CARTESIAN_POINT ( 'NONE',  ( 6.349999999999999645, -6.350000000000000533, 6.349999999999999645 ) ) ;
#158 = VECTOR ( 'NONE', #261, 1000.000000000000000 ) ;
#159 = APPROVAL ( #125, 'UNSPECIFIED' ) ;
#160 = CARTESIAN_POINT ( 'NONE',  ( 6.349999999999996980, 6.349999999999996980, -6.349999999999999645 ) ) ;
#161 = DIRECTION ( 'NONE',  ( 1.000000000000000000, -2.903408047666378392E-16, 0.000000000000000000 ) ) ;
#162 = CARTESIAN_POINT ( 'NONE',  ( 0.000000000000000000, 0.000000000000000000, -6.349999999999999645 ) ) ;
#163 = CARTESIAN_POINT ( 'NONE',  ( -6.349999999999999645, -6.350000000000000533, 6.349999999999999645 ) ) ;
#164 = ORIENTED_EDGE ( 'NONE', *, *, #285, .F. ) ;
#165 = DIRECTION ( 'NONE',  ( 1.000000000000000000, 0.000000000000000000, 0.000000000000000000 ) ) ;
#166 = CARTESIAN_POINT ( 'NONE',  ( -6.349999999999999645, -6.350000000000000533, -6.349999999999999645 ) ) ;
#167 = APPROVAL_PERSON_ORGANIZATION ( #41, #159, #272 ) ;
#168 = ADVANCED_FACE ( 'NONE', ( #223 ), #148, .T. ) ;
#169 = COORDINATED_UNIVERSAL_TIME_OFFSET ( 8, 0, .AHEAD. ) ;
#170 = EDGE_CURVE ( 'NONE', #201, #231, #298, .T. ) ;
#171 = VECTOR ( 'NONE', #211, 999.9999999999998863 ) ;
#172 = PLANE ( 'NONE',  #294 ) ;
#173 = LOCAL_TIME ( 10, 9, 0.000000000000000000, #101 ) ;
#174 = DIRECTION ( 'NONE',  ( 0.000000000000000000, -0.000000000000000000, 1.000000000000000000 ) ) ;
#175 = ADVANCED_FACE ( 'NONE', ( #74 ), #278, .F. ) ;
#176 = DATE_AND_TIME ( #2, #228 ) ;
#177 = ORIENTED_EDGE ( 'NONE', *, *, #306, .T. ) ;
#178 = ORIENTED_EDGE ( 'NONE', *, *, #320, .T. ) ;
#179 = ORIENTED_EDGE ( 'NONE', *, *, #182, .T. ) ;
#180 = VERTEX_POINT ( 'NONE', #185 ) ;
#181 = AXIS2_PLACEMENT_3D ( 'NONE', #117, #62, #216 ) ;
#182 = EDGE_CURVE ( 'NONE', #58, #138, #236, .T. ) ;
#183 = CARTESIAN_POINT ( 'NONE',  ( -6.349999999999998757, -6.349999999999997868, -6.349999999999999645 ) ) ;
#184 = AXIS2_PLACEMENT_3D ( 'NONE', #243, #292, #63 ) ;
#185 = CARTESIAN_POINT ( 'NONE',  ( 6.349999999999998757, 6.349999999999998757, 6.349999999999999645 ) ) ;
#186 = ORIENTED_EDGE ( 'NONE', *, *, #306, .F. ) ;
#187 = DIRECTION ( 'NONE',  ( 6.829619984160658046E-17, -1.000000000000000000, 0.000000000000000000 ) ) ;
#188 = LOCAL_TIME ( 10, 9, 0.000000000000000000, #169 ) ;
#189 = ORIENTED_EDGE ( 'NONE', *, *, #288, .T. ) ;
#190 = PLANE ( 'NONE',  #181 ) ;
#191 = FACE_OUTER_BOUND ( 'NONE', #35, .T. ) ;
#192 = EDGE_CURVE ( 'NONE', #130, #58, #110, .T. ) ;
#193 = CARTESIAN_POINT ( 'NONE',  ( -6.349999999999999645, -6.350000000000000533, -6.349999999999999645 ) ) ;
#194 = APPLICATION_PROTOCOL_DEFINITION ( 'international standard', 'config_control_design', 1994, #116 ) ;
#195 = CALENDAR_DATE ( 2020, 22, 12 ) ;
#196 = SECURITY_CLASSIFICATION_LEVEL ( 'unclassified' ) ;
#197 = DIRECTION ( 'NONE',  ( -0.000000000000000000, 0.000000000000000000, 1.000000000000000000 ) ) ;
#198 = DIRECTION ( 'NONE',  ( -2.220446049250312588E-16, 1.000000000000000000, 0.000000000000000000 ) ) ;
#199 = CLOSED_SHELL ( 'NONE', ( #53, #112, #93, #168, #100 ) ) ;
#200 = APPROVAL_ROLE ( '' ) ;
#201 = VERTEX_POINT ( 'NONE', #208 ) ;
#202 = DATE_TIME_ROLE ( 'classification_date' ) ;
#203 = EDGE_LOOP ( 'NONE', ( #154, #134, #311 ) ) ;
#204 = ORIENTED_EDGE ( 'NONE', *, *, #246, .F. ) ;
#205 = ORGANIZATION ( 'UNSPECIFIED', 'UNSPECIFIED', '' ) ;
#206 = EDGE_CURVE ( 'NONE', #49, #130, #113, .T. ) ;
#207 = DIRECTION ( 'NONE',  ( 0.000000000000000000, 0.000000000000000000, -1.000000000000000000 ) ) ;
#208 = CARTESIAN_POINT ( 'NONE',  ( -6.349999999999998757, -6.349999999999997868, 6.349999999999999645 ) ) ;
#209 = EDGE_LOOP ( 'NONE', ( #31, #303, #254, #111 ) ) ;
#210 = AXIS2_PLACEMENT_3D ( 'NONE', #59, #241, #266 ) ;
#211 = DIRECTION ( 'NONE',  ( -0.7071067811865475727, -0.7071067811865475727, 0.000000000000000000 ) ) ;
#212 = EDGE_LOOP ( 'NONE', ( #105, #179, #308 ) ) ;
#213 = LINE ( 'NONE', #291, #98 ) ;
#214 = FACE_OUTER_BOUND ( 'NONE', #155, .T. ) ;
#215 = EDGE_CURVE ( 'NONE', #231, #49, #34, .T. ) ;
#216 = DIRECTION ( 'NONE',  ( 0.7071067811865475727, 0.7071067811865475727, 0.000000000000000000 ) ) ;
#217 = LINE ( 'NONE', #39, #146 ) ;
#218 = CARTESIAN_POINT ( 'NONE',  ( 0.000000000000000000, 0.000000000000000000, 0.000000000000000000 ) ) ;
#219 = AXIS2_PLACEMENT_3D ( 'NONE', #47, #197, #249 ) ;
#220 = CC_DESIGN_PERSON_AND_ORGANIZATION_ASSIGNMENT ( #46, #252, ( #87 ) ) ;
#221 = PERSON_AND_ORGANIZATION ( #144, #205 ) ;
#222 = PERSON_AND_ORGANIZATION ( #144, #205 ) ;
#223 = FACE_OUTER_BOUND ( 'NONE', #50, .T. ) ;
#224 = DIRECTION ( 'NONE',  ( 1.000000000000000000, 0.000000000000000000, 0.000000000000000000 ) ) ;
#225 = FACE_OUTER_BOUND ( 'NONE', #229, .T. ) ;
#226 = VECTOR ( 'NONE', #91, 1000.000000000000000 ) ;
#227 = SHAPE_DEFINITION_REPRESENTATION ( #132, #67 ) ;
#228 = LOCAL_TIME ( 10, 9, 0.000000000000000000, #280 ) ;
#229 = EDGE_LOOP ( 'NONE', ( #88, #5, #232 ) ) ;
#230 = AXIS2_PLACEMENT_3D ( 'NONE', #290, #140, #115 ) ;
#231 = VERTEX_POINT ( 'NONE', #81 ) ;
#232 = ORIENTED_EDGE ( 'NONE', *, *, #170, .F. ) ;
#233 = EDGE_CURVE ( 'NONE', #138, #130, #307, .T. ) ;
#234 = CARTESIAN_POINT ( 'NONE',  ( 6.349999999999996980, 6.349999999999996980, 6.349999999999999645 ) ) ;
#235 = ORIENTED_EDGE ( 'NONE', *, *, #25, .F. ) ;
#236 = LINE ( 'NONE', #183, #75 ) ;
#237 = ORIENTED_EDGE ( 'NONE', *, *, #233, .F. ) ;
#238 = LINE ( 'NONE', #114, #15 ) ;
#239 = CARTESIAN_POINT ( 'NONE',  ( 6.349999999999998757, 6.349999999999998757, -6.349999999999999645 ) ) ;
#240 = VECTOR ( 'NONE', #165, 1000.000000000000000 ) ;
#241 = DIRECTION ( 'NONE',  ( 1.000000000000000000, -2.220446049250312588E-16, 0.000000000000000000 ) ) ;
#242 = MANIFOLD_SOLID_BREP ( 'Í¹Ì¨-À', #199 ) ;
#243 = CARTESIAN_POINT ( 'NONE',  ( 6.349999999999998757, 6.349999999999998757, 6.349999999999999645 ) ) ;
#244 = CC_DESIGN_APPROVAL ( #310, ( #109 ) ) ;
#245 = PRODUCT ( 'BK7-NPBSC-12.7-450-650', 'BK7-NPBSC-12.7-450-650', '', ( #250 ) ) ;
#246 = EDGE_CURVE ( 'NONE', #3, #180, #32, .T. ) ;
#247 = DIRECTION ( 'NONE',  ( -0.7071067811865474617, -0.7071067811865474617, 0.000000000000000000 ) ) ;
#248 = DATE_AND_TIME ( #119, #173 ) ;
#249 = DIRECTION ( 'NONE',  ( 1.000000000000000000, 0.000000000000000000, 0.000000000000000000 ) ) ;
#250 = MECHANICAL_CONTEXT ( 'NONE', #108, 'mechanical' ) ;
#251 = CARTESIAN_POINT ( 'NONE',  ( -6.349999999999998757, -6.349999999999997868, 6.349999999999999645 ) ) ;
#252 = PERSON_AND_ORGANIZATION_ROLE ( 'creator' ) ;
#253 = CARTESIAN_POINT ( 'NONE',  ( 0.000000000000000000, 0.000000000000000000, 6.349999999999999645 ) ) ;
#254 = ORIENTED_EDGE ( 'NONE', *, *, #48, .T. ) ;
#255 = CC_DESIGN_PERSON_AND_ORGANIZATION_ASSIGNMENT ( #222, #70, ( #295 ) ) ;
#256 = CALENDAR_DATE ( 2020, 22, 12 ) ;
#257 = CARTESIAN_POINT ( 'NONE',  ( -6.349999999999999645, -6.350000000000000533, 6.349999999999999645 ) ) ;
#258 = AXIS2_PLACEMENT_3D ( 'NONE', #162, #13, #139 ) ;
#259 = PRODUCT_RELATED_PRODUCT_CATEGORY ( 'detail', '', ( #245 ) ) ;
#260 = LINE ( 'NONE', #257, #286 ) ;
#261 = DIRECTION ( 'NONE',  ( 1.000000000000000000, -2.903408047666378392E-16, 0.000000000000000000 ) ) ;
#262 = ORIENTED_EDGE ( 'NONE', *, *, #131, .T. ) ;
#263 = APPROVAL_PERSON_ORGANIZATION ( #221, #69, #95 ) ;
#264 = CARTESIAN_POINT ( 'NONE',  ( 6.349999999999999645, -6.350000000000000533, 6.349999999999999645 ) ) ;
#265 = EDGE_CURVE ( 'NONE', #3, #26, #57, .T. ) ;
#266 = DIRECTION ( 'NONE',  ( 0.000000000000000000, 0.000000000000000000, 1.000000000000000000 ) ) ;
#267 = DIRECTION ( 'NONE',  ( 1.000000000000000000, 0.000000000000000000, 0.000000000000000000 ) ) ;
#268 = LINE ( 'NONE', #141, #226 ) ;
#269 = DIRECTION ( 'NONE',  ( -1.000000000000000000, -6.829619984160658046E-17, 0.000000000000000000 ) ) ;
#270 = VECTOR ( 'NONE', #161, 1000.000000000000000 ) ;
#271 = ADVANCED_FACE ( 'NONE', ( #38 ), #293, .F. ) ;
#272 = APPROVAL_ROLE ( '' ) ;
#273 = AXIS2_PLACEMENT_3D ( 'NONE', #72, #23, #174 ) ;
#274 = PERSON_AND_ORGANIZATION_ROLE ( 'design_supplier' ) ;
#275 = LINE ( 'NONE', #45, #296 ) ;
#276 = ADVANCED_FACE ( 'NONE', ( #36 ), #314, .F. ) ;
#277 = DATE_AND_TIME ( #145, #188 ) ;
#278 = PLANE ( 'NONE',  #66 ) ;
#279 = CC_DESIGN_DATE_AND_TIME_ASSIGNMENT ( #318, #1, ( #87 ) ) ;
#280 = COORDINATED_UNIVERSAL_TIME_OFFSET ( 8, 0, .AHEAD. ) ;
#281 = ORIENTED_EDGE ( 'NONE', *, *, #215, .T. ) ;
#282 = APPROVAL_DATE_TIME ( #176, #310 ) ;
#283 = EDGE_LOOP ( 'NONE', ( #262, #186, #204, #102 ) ) ;
#284 = DESIGN_CONTEXT ( 'detailed design', #116, 'design' ) ;
#285 = EDGE_CURVE ( 'NONE', #180, #79, #238, .T. ) ;
#286 = VECTOR ( 'NONE', #28, 1000.000000000000000 ) ;
#287 = DIRECTION ( 'NONE',  ( -1.000000000000000000, 2.903408047666378392E-16, 0.000000000000000000 ) ) ;
#288 = EDGE_CURVE ( 'NONE', #55, #26, #16, .T. ) ;
#289 = CARTESIAN_POINT ( 'NONE',  ( 6.349999999999998757, 6.349999999999998757, 6.349999999999999645 ) ) ;
#290 = CARTESIAN_POINT ( 'NONE',  ( 0.000000000000000000, 0.000000000000000000, -6.349999999999999645 ) ) ;
#291 = CARTESIAN_POINT ( 'NONE',  ( -6.350000000000002309, 6.350000000000001421, 6.349999999999999645 ) ) ;
#292 = DIRECTION ( 'NONE',  ( 0.7071067811865475727, -0.7071067811865475727, 0.000000000000000000 ) ) ;
#293 = PLANE ( 'NONE',  #210 ) ;
#294 = AXIS2_PLACEMENT_3D ( 'NONE', #253, #321, #99 ) ;
#295 = PRODUCT_DEFINITION_FORMATION_WITH_SPECIFIED_SOURCE ( 'ANY', '', #245, .NOT_KNOWN. ) ;
#296 = VECTOR ( 'NONE', #300, 1000.000000000000000 ) ;
#297 = PERSON_AND_ORGANIZATION ( #144, #205 ) ;
#298 = LINE ( 'NONE', #251, #151 ) ;
#299 = CC_DESIGN_DATE_AND_TIME_ASSIGNMENT ( #302, #202, ( #109 ) ) ;
#300 = DIRECTION ( 'NONE',  ( 0.000000000000000000, 0.000000000000000000, -1.000000000000000000 ) ) ;
#301 = EDGE_CURVE ( 'NONE', #231, #138, #213, .T. ) ;
#302 = DATE_AND_TIME ( #256, #316 ) ;
#303 = ORIENTED_EDGE ( 'NONE', *, *, #206, .F. ) ;
#304 = ADVANCED_FACE ( 'NONE', ( #312 ), #190, .F. ) ;
#305 = DIRECTION ( 'NONE',  ( -2.220446049250312588E-16, 1.000000000000000000, 0.000000000000000000 ) ) ;
#306 = EDGE_CURVE ( 'NONE', #180, #106, #268, .T. ) ;
#307 = LINE ( 'NONE', #56, #158 ) ;
#308 = ORIENTED_EDGE ( 'NONE', *, *, #233, .T. ) ;
#309 = VECTOR ( 'NONE', #207, 1000.000000000000000 ) ;
#310 = APPROVAL ( #78, 'UNSPECIFIED' ) ;
#311 = ORIENTED_EDGE ( 'NONE', *, *, #288, .F. ) ;
#312 = FACE_OUTER_BOUND ( 'NONE', #209, .T. ) ;
#313 = DIRECTION ( 'NONE',  ( -0.7071067811865475727, -0.7071067811865475727, 0.000000000000000000 ) ) ;
#314 = PLANE ( 'NONE',  #258 ) ;
#315 = PLANE ( 'NONE',  #230 ) ;
#316 = LOCAL_TIME ( 10, 9, 0.000000000000000000, #156 ) ;
#317 =( LENGTH_UNIT ( ) NAMED_UNIT ( * ) SI_UNIT ( .MILLI., .METRE. ) );
#318 = DATE_AND_TIME ( #195, #77 ) ;
#319 = CARTESIAN_POINT ( 'NONE',  ( 6.349999999999998757, 6.349999999999998757, -6.349999999999999645 ) ) ;
#320 = EDGE_CURVE ( 'NONE', #106, #55, #52, .T. ) ;
#321 = DIRECTION ( 'NONE',  ( 0.000000000000000000, 0.000000000000000000, 1.000000000000000000 ) ) ;
ENDSEC;
END-ISO-10303-21;
